  0
SECTION
  2
BLOCKS
  0
ENDSEC
  0
SECTION
  2
ENTITIES
  0
LINE
  8
0
 10
-64.5
 20
-84.5
 11
64.5
 21
-84.5
  0
LINE
  8
0
 10
64.5
 20
-84.5
 11
64.5
 21
-88.5
  0
LINE
  8
0
 10
64.5
 20
-88.5
 11
74.5
 21
-88.5
  0
LINE
  8
0
 10
74.5
 20
-88.5
 11
74.5
 21
-84.5
  0
LINE
  8
0
 10
74.5
 20
-84.5
 11
79.5
 21
-84.5
  0
LINE
  8
0
 10
79.5
 20
-84.5
 11
79.5
 21
-79.5
  0
LINE
  8
0
 10
79.5
 20
-79.5
 11
83.5
 21
-79.5
  0
LINE
  8
0
 10
83.5
 20
-79.5
 11
83.5
 21
-69.5
  0
LINE
  8
0
 10
83.5
 20
-69.5
 11
79.5
 21
-69.5
  0
LINE
  8
0
 10
79.5
 20
-69.5
 11
79.5
 21
69.5
  0
LINE
  8
0
 10
79.5
 20
69.5
 11
83.5
 21
69.5
  0
LINE
  8
0
 10
83.5
 20
69.5
 11
83.5
 21
79.5
  0
LINE
  8
0
 10
83.5
 20
79.5
 11
79.5
 21
79.5
  0
LINE
  8
0
 10
79.5
 20
79.5
 11
79.5
 21
84.5
  0
LINE
  8
0
 10
79.5
 20
84.5
 11
74.5
 21
84.5
  0
LINE
  8
0
 10
74.5
 20
84.5
 11
74.5
 21
88.5
  0
LINE
  8
0
 10
74.5
 20
88.5
 11
64.5
 21
88.5
  0
LINE
  8
0
 10
64.5
 20
88.5
 11
64.5
 21
84.5
  0
LINE
  8
0
 10
64.5
 20
84.5
 11
-64.5
 21
84.5
  0
LINE
  8
0
 10
-64.5
 20
84.5
 11
-64.5
 21
88.5
  0
LINE
  8
0
 10
-64.5
 20
88.5
 11
-74.5
 21
88.5
  0
LINE
  8
0
 10
-74.5
 20
88.5
 11
-74.5
 21
84.5
  0
LINE
  8
0
 10
-74.5
 20
84.5
 11
-79.5
 21
84.5
  0
LINE
  8
0
 10
-79.5
 20
84.5
 11
-79.5
 21
79.5
  0
LINE
  8
0
 10
-79.5
 20
79.5
 11
-83.5
 21
79.5
  0
LINE
  8
0
 10
-83.5
 20
79.5
 11
-83.5
 21
69.5
  0
LINE
  8
0
 10
-83.5
 20
69.5
 11
-79.5
 21
69.5
  0
LINE
  8
0
 10
-79.5
 20
69.5
 11
-79.5
 21
-69.5
  0
LINE
  8
0
 10
-79.5
 20
-69.5
 11
-83.5
 21
-69.5
  0
LINE
  8
0
 10
-83.5
 20
-69.5
 11
-83.5
 21
-79.5
  0
LINE
  8
0
 10
-83.5
 20
-79.5
 11
-79.5
 21
-79.5
  0
LINE
  8
0
 10
-79.5
 20
-79.5
 11
-79.5
 21
-84.5
  0
LINE
  8
0
 10
-79.5
 20
-84.5
 11
-74.5
 21
-84.5
  0
LINE
  8
0
 10
-74.5
 20
-84.5
 11
-74.5
 21
-88.5
  0
LINE
  8
0
 10
-74.5
 20
-88.5
 11
-64.5
 21
-88.5
  0
LINE
  8
0
 10
-64.5
 20
-88.5
 11
-64.5
 21
-84.5
  0
LINE
  8
0
 10
-69.5
 20
-74.5
 11
-69.5
 21
74.5
  0
LINE
  8
0
 10
-69.5
 20
74.5
 11
69.5
 21
74.5
  0
LINE
  8
0
 10
69.5
 20
74.5
 11
69.5
 21
-74.5
  0
LINE
  8
0
 10
69.5
 20
-74.5
 11
-69.5
 21
-74.5
  0
ENDSEC
  0
SECTION
  2
OBJECTS
  0
DICTIONARY
  0
ENDSEC
  0
EOF
