  0
SECTION
  2
BLOCKS
  0
ENDSEC
  0
SECTION
  2
ENTITIES
  0
LINE
  8
0
 10
-19
 20
-2.5
 11
-15
 21
-2.5
  0
LINE
  8
0
 10
-15
 20
-2.5
 11
-15
 21
7.5
  0
LINE
  8
0
 10
-15
 20
7.5
 11
-19
 21
7.5
  0
LINE
  8
0
 10
-19
 20
7.5
 11
-19
 21
17.5
  0
LINE
  8
0
 10
-19
 20
17.5
 11
-15
 21
17.5
  0
LINE
  8
0
 10
-15
 20
17.5
 11
-15
 21
27.5
  0
LINE
  8
0
 10
-15
 20
27.5
 11
-19
 21
27.5
  0
LINE
  8
0
 10
-19
 20
27.5
 11
-19
 21
35
  0
LINE
  8
0
 10
-19
 20
35
 11
-29
 21
35
  0
LINE
  8
0
 10
-29
 20
35
 11
-39
 21
10
  0
LINE
  8
0
 10
-39
 20
10
 11
-39
 21
-10
  0
LINE
  8
0
 10
-39
 20
-10
 11
-19
 21
-10
  0
LINE
  8
0
 10
-19
 20
-10
 11
-19
 21
-2.5
  0
LINE
  8
0
 10
-34
 20
-2
 11
-34
 21
2
  0
LINE
  8
0
 10
-34
 20
2
 11
-24
 21
2
  0
LINE
  8
0
 10
-24
 20
2
 11
-24
 21
-2
  0
LINE
  8
0
 10
-24
 20
-2
 11
-34
 21
-2
  0
LINE
  8
0
 10
10
 20
10
 11
0
 21
35
  0
LINE
  8
0
 10
0
 20
35
 11
-14
 21
35
  0
LINE
  8
0
 10
-14
 20
35
 11
-14
 21
27.5
  0
LINE
  8
0
 10
-14
 20
27.5
 11
-10
 21
27.5
  0
LINE
  8
0
 10
-10
 20
27.5
 11
-10
 21
17.5
  0
LINE
  8
0
 10
-10
 20
17.5
 11
-14
 21
17.5
  0
LINE
  8
0
 10
-14
 20
17.5
 11
-14
 21
7.5
  0
LINE
  8
0
 10
-14
 20
7.5
 11
-10
 21
7.5
  0
LINE
  8
0
 10
-10
 20
7.5
 11
-10
 21
-2.5
  0
LINE
  8
0
 10
-10
 20
-2.5
 11
-14
 21
-2.5
  0
LINE
  8
0
 10
-14
 20
-2.5
 11
-14
 21
-10
  0
LINE
  8
0
 10
-14
 20
-10
 11
10
 21
-10
  0
LINE
  8
0
 10
10
 20
-10
 11
10
 21
10
  0
LINE
  8
0
 10
-5
 20
-2
 11
-5
 21
2
  0
LINE
  8
0
 10
-5
 20
2
 11
5
 21
2
  0
LINE
  8
0
 10
5
 20
2
 11
5
 21
-2
  0
LINE
  8
0
 10
5
 20
-2
 11
-5
 21
-2
  0
ENDSEC
  0
SECTION
  2
OBJECTS
  0
DICTIONARY
  0
ENDSEC
  0
EOF
