0
SECTION
2
HEADER
9
$INSUNITS
70
4
9
$ACADVER
1
AC1014
9
$HANDSEED
5
FFFF
0
ENDSEC
0
SECTION
2
TABLES
0
TABLE
2
VPORT
5
8
100
AcDbSymbolTable
0
ENDTAB
0
TABLE
2
LTYPE
5
5
100
AcDbSymbolTable
0
LTYPE
5
14
100
AcDbSymbolTableRecord
100
AcDbLinetypeTableRecord
2
BYBLOCK
70
0
0
LTYPE
5
15
100
AcDbSymbolTableRecord
100
AcDbLinetypeTableRecord
2
BYLAYER
70
0
0
ENDTAB
0
TABLE
2
LAYER
5
2
100
AcDbSymbolTable
70
2
0
LAYER
5
50
100
AcDbSymbolTableRecord
100
AcDbLayerTableRecord
2
0
70
0
6
CONTINUOUS
0
ENDTAB
0
TABLE
2
STYLE
5
3
100
AcDbSymbolTable
70
1
0
STYLE
5
11
100
AcDbSymbolTableRecord
100
AcDbTextStyleTableRecord
2
STANDARD
70
0
0
ENDTAB
0
TABLE
2
VIEW
5
6
100
AcDbSymbolTable
70
0
0
ENDTAB
0
TABLE
2
UCS
5
7
100
AcDbSymbolTable
70
0
0
ENDTAB
0
TABLE
2
APPID
5
9
100
AcDbSymbolTable
70
2
0
APPID
5
12
100
AcDbSymbolTableRecord
100
AcDbRegAppTableRecord
2
ACAD
70
0
0
ENDTAB
0
TABLE
2
DIMSTYLE
5
A
100
AcDbSymbolTable
70
1
0
ENDTAB
0
TABLE
2
BLOCK_RECORD
5
1
100
AcDbSymbolTable
70
1
0
BLOCK_RECORD
5
1F
100
AcDbSymbolTableRecord
100
AcDbBlockTableRecord
2
*MODEL_SPACE
0
BLOCK_RECORD
5
1B
100
AcDbSymbolTableRecord
100
AcDbBlockTableRecord
2
*PAPER_SPACE
0
ENDTAB
0
ENDSEC
0
SECTION
2
BLOCKS
0
BLOCK
5
20
100
AcDbEntity
100
AcDbBlockBegin
2
*MODEL_SPACE
0
ENDBLK
5
21
100
AcDbEntity
100
AcDbBlockEnd
0
BLOCK
5
1C
100
AcDbEntity
100
AcDbBlockBegin
2
*PAPER_SPACE
0
ENDBLK
5
1D
100
AcDbEntity
100
AcDbBlockEnd
0
ENDSEC
0
SECTION
2
ENTITIES
0
ARC
5
100
100
AcDbEntity
8
0
100
AcDbCircle
10
340.99989019772721
20
26.106006530112186
30
3.4191682529525537e-42
40
2.0000000000000684
210
3.5460814730073027e-31
220
-5.0487097934144728e-29
230
1
100
AcDbArc
50
270.00000000000159
51
360
0
LINE
5
101
100
AcDbEntity
8
0
100
AcDbLine
10
342.99989019772732
20
26.106006530112115
30
-7.0921629459807177e-31
11
342.99989019772732
21
40.106006530112133
31
0
0
ARC
5
102
100
AcDbEntity
8
0
100
AcDbCircle
10
340.99989019772721
20
40.10600653011204
30
1.7763568394002501e-14
40
2.0000000000000995
210
-1.4791141972893237e-29
220
3.4700690789053049e-43
230
1
100
AcDbArc
50
0
51
89.99999999999838
0
LINE
5
103
100
AcDbEntity
8
0
100
AcDbLine
10
340.99989019772727
20
42.10600653011214
30
1.7763568394002501e-14
11
-15.000109802272732
21
42.106006530112126
31
-5.1368798467391952e-37
0
ARC
5
104
100
AcDbEntity
8
0
100
AcDbCircle
10
-15.000109802272714
20
40.106006530112133
30
2.1019476964872256e-44
40
1.9999999999999929
210
-5.2419427891884983e-29
220
2.5684353726865291e-37
230
1
100
AcDbArc
50
90.000000000000512
51
180
0
LINE
5
105
100
AcDbEntity
8
0
100
AcDbLine
10
-17.000109802272718
20
40.106006530112133
30
-2.5952765261670388e-29
11
-17.000109802272711
21
26.106006530112129
31
1.7763568394002505e-14
0
ARC
5
106
100
AcDbEntity
8
0
100
AcDbCircle
10
-15.000109802272705
20
26.106006530112129
30
-2.8025969286496341e-44
40
2.000000000000004
210
8.881784197001235e-15
220
-3.0765575303619898e-29
230
1
100
AcDbArc
50
180
51
269.99999999999972
0
LINE
5
107
100
AcDbEntity
8
0
100
AcDbLine
10
-15.000109802272716
20
24.106006530112126
30
-1.0097419586828958e-28
11
340.99989019772727
21
24.106006530112118
31
-1.009741958682895e-28
0
LWPOLYLINE
5
108
100
AcDbEntity
8
0
100
AcDbPolyline
90
4
70
1
43
0.0
10
302.24989019772727
20
37.003120847142142
10
307.98604262043398
20
33.691351701779709
10
307.98604262043398
20
36.289427913133025
10
302.24989019772727
20
39.601197058495465
0
LWPOLYLINE
5
109
100
AcDbEntity
8
0
100
AcDbPolyline
90
4
70
1
43
0.0
10
296.51373777502056
20
37.716813781151195
10
296.51373777502056
20
35.118737569797872
10
307.98604262043392
20
28.495199279073042
10
307.98604262043392
20
31.093275490426365
0
LWPOLYLINE
5
110
100
AcDbEntity
8
0
100
AcDbPolyline
90
4
70
1
43
0.0
10
296.51373777502056
20
32.520661358444556
10
296.51373777502056
20
29.92258514709124
10
302.24989019772727
20
26.610816001728811
10
302.24989019772727
20
29.20889221308212
0
CIRCLE
5
111
100
AcDbEntity
8
0
100
AcDbCircle
10
122.99989019772731
20
33.106006530112133
30
-1.7763568394002505e-14
40
1.7000000000031417
210
-1.2621774484981541e-29
220
5.0487097934144756e-29
230
1
0
CIRCLE
5
112
100
AcDbEntity
8
0
100
AcDbCircle
10
202.99989019772727
20
33.106006530112133
30
0
40
1.7000000000031501
210
-1.4453524534918922e-39
220
-5.8241340210867749e-66
230
1
0
CIRCLE
5
113
100
AcDbEntity
8
0
100
AcDbCircle
10
242.99989019772727
20
33.106006530112133
30
0
40
1.7000000000031543
210
-1.445352453491891e-39
220
-5.0487097934144756e-29
230
1
0
CIRCLE
5
114
100
AcDbEntity
8
0
100
AcDbCircle
10
162.99989019772727
20
33.106006530112133
30
0
40
1.7000000000031457
210
-1.4453524534918889e-39
220
5.0487097934144767e-29
230
1
0
CIRCLE
5
115
100
AcDbEntity
8
0
100
AcDbCircle
10
3.9998901977272943
20
38.106006530112133
30
-1.7763568394002505e-14
40
1
210
-1.2621774483536189e-29
220
-0
230
1
0
CIRCLE
5
116
100
AcDbEntity
8
0
100
AcDbCircle
10
3.9998901977272943
20
28.106006530112133
30
0
40
1
210
-1.2621774483536189e-29
220
-0
230
1
0
CIRCLE
5
117
100
AcDbEntity
8
0
100
AcDbCircle
10
11.999890197727296
20
33.106006530112133
30
-1.7763568394002505e-14
40
1
210
-1.2621774483536189e-29
220
-0
230
1
0
CIRCLE
5
118
100
AcDbEntity
8
0
100
AcDbCircle
10
42.999890197727311
20
33.106006530112133
30
-1.7763568394002505e-14
40
1.700000000002394
210
-1.4453524534918904e-39
220
-5.8241340210867591e-66
230
1
0
CIRCLE
5
119
100
AcDbEntity
8
0
100
AcDbCircle
10
82.999890197727311
20
33.106006530112133
30
-1.7763568394002505e-14
40
1.7000000000023983
210
-1.2621774484981544e-29
220
5.0487097934144767e-29
230
1
0
CIRCLE
5
120
100
AcDbEntity
8
0
100
AcDbCircle
10
282.99989019772727
20
33.106006530112133
30
-1.7763568394002505e-14
40
1.7000000000024198
210
-1.445352453491892e-39
220
-5.0487097934144756e-29
230
1
0
CIRCLE
5
121
100
AcDbEntity
8
0
100
AcDbCircle
10
19.999890197727296
20
33.106006530112133
30
0
40
1
210
-1.2621774483536189e-29
220
-0
230
1
0
CIRCLE
5
122
100
AcDbEntity
8
0
100
AcDbCircle
10
2.9998901977273054
20
33.106006530112133
30
0
40
1.700000000003306
210
-1.2621774484981541e-29
220
5.0487097934144756e-29
230
1
0
CIRCLE
5
123
100
AcDbEntity
8
0
100
AcDbCircle
10
322.99989019772732
20
33.106006530112133
30
-1.7763568394002505e-14
40
1.7000000000033402
210
-1.4453524534918884e-39
220
5.0487097934144767e-29
230
1
0
CIRCLE
5
124
100
AcDbEntity
8
0
100
AcDbCircle
10
7.9998901977272929
20
33.106006530112133
30
0
40
1
210
-1.2621774483536189e-29
220
1.448908652612274e-70
230
1
0
ENDSEC
0
SECTION
2
OBJECTS
0
DICTIONARY
5
C
100
AcDbDictionary
3
ACAD_GROUP
350
D
3
ACAD_MLINESTYLE
350
17
0
DICTIONARY
5
D
100
AcDbDictionary
0
DICTIONARY
5
1A
330
C
100
AcDbDictionary
0
DICTIONARY
5
17
100
AcDbDictionary
0
ENDSEC
0
EOF
